ISO-10303-21;
HEADER;
FILE_DESCRIPTION (( 'STEP AP203' ),
    '1' );
FILE_NAME ('500006_c_1.STEP',
    '2023-05-11T15:33:05',
    ( '' ),
    ( '' ),
    'SwSTEP 2.0',
    'SolidWorks 2014',
    '' );
FILE_SCHEMA (( 'CONFIG_CONTROL_DESIGN' ));
ENDSEC;

DATA;
#1 = APPLICATION_CONTEXT ( 'configuration controlled 3d designs of mechanical parts and assemblies' ) ;
#2 = APPLICATION_PROTOCOL_DEFINITION ( 'international standard', 'config_control_design', 1994, #221 ) ;
#3 = VECTOR ( 'NONE', #69, 1000.000000000000000 ) ;
#4 = ADVANCED_FACE ( 'NONE', ( #27 ), #89, .F. ) ;
#5 = EDGE_CURVE ( 'NONE', #181, #78, #61, .T. ) ;
#6 = LINE ( 'NONE', #188, #162 ) ;
#7 = EDGE_LOOP ( 'NONE', ( #124, #58, #75, #169 ) ) ;
#8 = CC_DESIGN_SECURITY_CLASSIFICATION ( #105, ( #49 ) ) ;
#9 = CARTESIAN_POINT ( 'NONE',  ( 0.0000000000000000000, -1250.000000000000500, 6.000000000000000000 ) ) ;
#10 = DIRECTION ( 'NONE',  ( 0.0000000000000000000, -1.000000000000000000, 0.0000000000000000000 ) ) ;
#11 = LOCAL_TIME ( 8, 33, 5.000000000000000000, #30 ) ;
#12 = CC_DESIGN_PERSON_AND_ORGANIZATION_ASSIGNMENT ( #178, #67, ( #49 ) ) ;
#13 = PERSON_AND_ORGANIZATION ( #90, #63 ) ;
#14 = EDGE_LOOP ( 'NONE', ( #230, #166, #219, #158 ) ) ;
#15 = DATE_AND_TIME ( #226, #11 ) ;
#16 = FACE_OUTER_BOUND ( 'NONE', #14, .T. ) ;
#17 = COORDINATED_UNIVERSAL_TIME_OFFSET ( 8, 0, .BEHIND. ) ;
#18 = LINE ( 'NONE', #31, #193 ) ;
#19 = APPROVAL_STATUS ( 'not_yet_approved' ) ;
#20 = PRODUCT_RELATED_PRODUCT_CATEGORY ( 'detail', '', ( #123 ) ) ;
#21 =( NAMED_UNIT ( * ) SI_UNIT ( $, .STERADIAN. ) SOLID_ANGLE_UNIT ( ) );
#22 = LOCAL_TIME ( 8, 33, 5.000000000000000000, #35 ) ;
#23 = ORIENTED_EDGE ( 'NONE', *, *, #127, .T. ) ;
#24 = EDGE_CURVE ( 'NONE', #190, #133, #232, .T. ) ;
#25 = DIRECTION ( 'NONE',  ( -0.0000000000000000000, -1.000000000000000000, -0.0000000000000000000 ) ) ;
#26 = SECURITY_CLASSIFICATION_LEVEL ( 'unclassified' ) ;
#27 = FACE_OUTER_BOUND ( 'NONE', #208, .T. ) ;
#28 = ORIENTED_EDGE ( 'NONE', *, *, #127, .F. ) ;
#29 = AXIS2_PLACEMENT_3D ( 'NONE', #54, #191, #88 ) ;
#30 = COORDINATED_UNIVERSAL_TIME_OFFSET ( 8, 0, .BEHIND. ) ;
#31 = CARTESIAN_POINT ( 'NONE',  ( 625.0000000000000000, -1250.000000000000500, 0.0000000000000000000 ) ) ;
#32 = ORIENTED_EDGE ( 'NONE', *, *, #121, .T. ) ;
#33 = APPROVAL_PERSON_ORGANIZATION ( #86, #142, #39 ) ;
#34 = UNCERTAINTY_MEASURE_WITH_UNIT (LENGTH_MEASURE( 1.000000000000000100E-005 ), #118, 'distance_accuracy_value', 'NONE');
#35 = COORDINATED_UNIVERSAL_TIME_OFFSET ( 8, 0, .BEHIND. ) ;
#36 = VECTOR ( 'NONE', #25, 1000.000000000000000 ) ;
#37 = VERTEX_POINT ( 'NONE', #229 ) ;
#38 = DIRECTION ( 'NONE',  ( -0.0000000000000000000, -0.0000000000000000000, -1.000000000000000000 ) ) ;
#39 = APPROVAL_ROLE ( '' ) ;
#40 = LINE ( 'NONE', #173, #97 ) ;
#41 = APPROVAL_STATUS ( 'not_yet_approved' ) ;
#42 = APPROVAL_STATUS ( 'not_yet_approved' ) ;
#43 = CARTESIAN_POINT ( 'NONE',  ( -625.0000000000000000, 1249.999999999999500, 0.0000000000000000000 ) ) ;
#44 = CALENDAR_DATE ( 2023, 11, 5 ) ;
#45 = DATE_TIME_ROLE ( 'classification_date' ) ;
#46 = VECTOR ( 'NONE', #235, 1000.000000000000000 ) ;
#47 = CARTESIAN_POINT ( 'NONE',  ( 625.0000000000000000, -1250.000000000000500, 6.000000000000000000 ) ) ;
#48 = EDGE_LOOP ( 'NONE', ( #126, #116, #228, #213 ) ) ;
#49 = PRODUCT_DEFINITION_FORMATION_WITH_SPECIFIED_SOURCE ( 'ANY', '', #123, .NOT_KNOWN. ) ;
#50 = ADVANCED_FACE ( 'NONE', ( #149 ), #174, .F. ) ;
#51 = LINE ( 'NONE', #43, #91 ) ;
#52 = CARTESIAN_POINT ( 'NONE',  ( 625.0000000000000000, 1249.999999999999500, 6.000000000000000000 ) ) ;
#53 = APPROVAL ( #41, 'UNSPECIFIED' ) ;
#54 = CARTESIAN_POINT ( 'NONE',  ( 625.0000000000000000, -1250.000000000000500, 6.000000000000000000 ) ) ;
#55 = DIRECTION ( 'NONE',  ( 0.0000000000000000000, 1.000000000000000000, 0.0000000000000000000 ) ) ;
#56 = VECTOR ( 'NONE', #217, 1000.000000000000000 ) ;
#57 = SHAPE_DEFINITION_REPRESENTATION ( #132, #120 ) ;
#58 = ORIENTED_EDGE ( 'NONE', *, *, #198, .T. ) ;
#59 = EDGE_CURVE ( 'NONE', #78, #190, #152, .T. ) ;
#60 = DATE_AND_TIME ( #44, #22 ) ;
#61 = LINE ( 'NONE', #47, #135 ) ;
#62 = AXIS2_PLACEMENT_3D ( 'NONE', #201, #100, #113 ) ;
#63 = ORGANIZATION ( 'UNSPECIFIED', 'UNSPECIFIED', '' ) ;
#64 = CARTESIAN_POINT ( 'NONE',  ( -625.0000000000000000, 0.0000000000000000000, 6.000000000000000000 ) ) ;
#65 = DIRECTION ( 'NONE',  ( 1.000000000000000000, -0.0000000000000000000, 0.0000000000000000000 ) ) ;
#66 = CARTESIAN_POINT ( 'NONE',  ( -625.0000000000000000, -1250.000000000000500, 6.000000000000000000 ) ) ;
#67 = PERSON_AND_ORGANIZATION_ROLE ( 'creator' ) ;
#68 = CARTESIAN_POINT ( 'NONE',  ( -625.0000000000000000, -1250.000000000000500, 6.000000000000000000 ) ) ;
#69 = DIRECTION ( 'NONE',  ( 0.0000000000000000000, 0.0000000000000000000, -1.000000000000000000 ) ) ;
#70 = AXIS2_PLACEMENT_3D ( 'NONE', #68, #65, #164 ) ;
#71 = CARTESIAN_POINT ( 'NONE',  ( 625.0000000000000000, 1249.999999999999500, 0.0000000000000000000 ) ) ;
#72 = APPROVAL_PERSON_ORGANIZATION ( #101, #104, #168 ) ;
#73 = ORIENTED_EDGE ( 'NONE', *, *, #111, .F. ) ;
#74 = COORDINATED_UNIVERSAL_TIME_OFFSET ( 8, 0, .BEHIND. ) ;
#75 = ORIENTED_EDGE ( 'NONE', *, *, #5, .F. ) ;
#76 = CARTESIAN_POINT ( 'NONE',  ( -625.0000000000000000, 1249.999999999999500, 6.000000000000000000 ) ) ;
#77 = CC_DESIGN_DATE_AND_TIME_ASSIGNMENT ( #60, #45, ( #105 ) ) ;
#78 = VERTEX_POINT ( 'NONE', #209 ) ;
#79 = EDGE_CURVE ( 'NONE', #37, #83, #6, .T. ) ;
#80 = DATE_AND_TIME ( #204, #216 ) ;
#81 = CC_DESIGN_DATE_AND_TIME_ASSIGNMENT ( #141, #128, ( #161 ) ) ;
#82 = CARTESIAN_POINT ( 'NONE',  ( 625.0000000000000000, 0.0000000000000000000, 6.000000000000000000 ) ) ;
#83 = VERTEX_POINT ( 'NONE', #52 ) ;
#84 = CARTESIAN_POINT ( 'NONE',  ( 0.0000000000000000000, 0.0000000000000000000, 6.000000000000000000 ) ) ;
#85 = DIRECTION ( 'NONE',  ( 1.000000000000000000, 0.0000000000000000000, 0.0000000000000000000 ) ) ;
#86 = PERSON_AND_ORGANIZATION ( #90, #63 ) ;
#87 = DIRECTION ( 'NONE',  ( 0.0000000000000000000, 0.0000000000000000000, 1.000000000000000000 ) ) ;
#88 = DIRECTION ( 'NONE',  ( 0.0000000000000000000, 0.0000000000000000000, 1.000000000000000000 ) ) ;
#89 = PLANE ( 'NONE',  #134 ) ;
#90 = PERSON ( 'UNSPECIFIED', 'UNSPECIFIED', 'UNSPECIFIED', ('UNSPECIFIED'), ('UNSPECIFIED'), ('UNSPECIFIED') ) ;
#91 = VECTOR ( 'NONE', #85, 1000.000000000000000 ) ;
#92 = EDGE_CURVE ( 'NONE', #107, #181, #18, .T. ) ;
#93 = ORIENTED_EDGE ( 'NONE', *, *, #5, .T. ) ;
#94 = CARTESIAN_POINT ( 'NONE',  ( -625.0000000000000000, 1249.999999999999500, 6.000000000000000000 ) ) ;
#95 = VECTOR ( 'NONE', #155, 1000.000000000000000 ) ;
#96 = LINE ( 'NONE', #76, #139 ) ;
#97 = VECTOR ( 'NONE', #153, 1000.000000000000000 ) ;
#98 = ORIENTED_EDGE ( 'NONE', *, *, #59, .T. ) ;
#99 =( NAMED_UNIT ( * ) PLANE_ANGLE_UNIT ( ) SI_UNIT ( $, .RADIAN. ) );
#100 = DIRECTION ( 'NONE',  ( 0.0000000000000000000, 0.0000000000000000000, 1.000000000000000000 ) ) ;
#101 = PERSON_AND_ORGANIZATION ( #90, #63 ) ;
#102 = ORIENTED_EDGE ( 'NONE', *, *, #175, .F. ) ;
#103 = ADVANCED_FACE ( 'NONE', ( #110 ), #172, .F. ) ;
#104 = APPROVAL ( #42, 'UNSPECIFIED' ) ;
#105 = SECURITY_CLASSIFICATION ( '', '', #26 ) ;
#106 = FACE_OUTER_BOUND ( 'NONE', #211, .T. ) ;
#107 = VERTEX_POINT ( 'NONE', #71 ) ;
#108 = ORIENTED_EDGE ( 'NONE', *, *, #177, .T. ) ;
#109 = APPROVAL_PERSON_ORGANIZATION ( #156, #53, #150 ) ;
#110 = FACE_OUTER_BOUND ( 'NONE', #7, .T. ) ;
#111 = EDGE_CURVE ( 'NONE', #181, #133, #40, .T. ) ;
#112 = CC_DESIGN_PERSON_AND_ORGANIZATION_ASSIGNMENT ( #115, #114, ( #49 ) ) ;
#113 = DIRECTION ( 'NONE',  ( 1.000000000000000000, 0.0000000000000000000, 0.0000000000000000000 ) ) ;
#114 = PERSON_AND_ORGANIZATION_ROLE ( 'design_supplier' ) ;
#115 = PERSON_AND_ORGANIZATION ( #90, #63 ) ;
#116 = ORIENTED_EDGE ( 'NONE', *, *, #177, .F. ) ;
#117 = DIRECTION ( 'NONE',  ( -1.000000000000000000, 0.0000000000000000000, -0.0000000000000000000 ) ) ;
#118 =( LENGTH_UNIT ( ) NAMED_UNIT ( * ) SI_UNIT ( .MILLI., .METRE. ) );
#119 = LINE ( 'NONE', #233, #46 ) ;
#120 = ADVANCED_BREP_SHAPE_REPRESENTATION ( '500006_c_1', ( #215, #62 ), #170 ) ;
#121 = EDGE_CURVE ( 'NONE', #83, #107, #154, .T. ) ;
#122 = CC_DESIGN_PERSON_AND_ORGANIZATION_ASSIGNMENT ( #13, #222, ( #123 ) ) ;
#123 = PRODUCT ( '500006_c_1', '500006_c_1', '', ( #167 ) ) ;
#124 = ORIENTED_EDGE ( 'NONE', *, *, #121, .F. ) ;
#125 = APPROVAL_DATE_TIME ( #15, #104 ) ;
#126 = ORIENTED_EDGE ( 'NONE', *, *, #79, .F. ) ;
#127 = EDGE_CURVE ( 'NONE', #37, #180, #96, .T. ) ;
#128 = DATE_TIME_ROLE ( 'creation_date' ) ;
#129 = ORIENTED_EDGE ( 'NONE', *, *, #24, .T. ) ;
#130 = PERSON_AND_ORGANIZATION_ROLE ( 'creator' ) ;
#131 = CARTESIAN_POINT ( 'NONE',  ( -625.0000000000000000, 1249.999999999999500, 0.0000000000000000000 ) ) ;
#132 = PRODUCT_DEFINITION_SHAPE ( 'NONE', 'NONE',  #161 ) ;
#133 = VERTEX_POINT ( 'NONE', #146 ) ;
#134 = AXIS2_PLACEMENT_3D ( 'NONE', #94, #10, #227 ) ;
#135 = VECTOR ( 'NONE', #87, 1000.000000000000000 ) ;
#136 = DIRECTION ( 'NONE',  ( 1.000000000000000000, -0.0000000000000000000, 0.0000000000000000000 ) ) ;
#137 = AXIS2_PLACEMENT_3D ( 'NONE', #84, #148, #117 ) ;
#138 = CARTESIAN_POINT ( 'NONE',  ( -625.0000000000000000, -1250.000000000000500, 6.000000000000000000 ) ) ;
#139 = VECTOR ( 'NONE', #199, 1000.000000000000000 ) ;
#140 = CARTESIAN_POINT ( 'NONE',  ( -625.0000000000000000, -1250.000000000000500, 6.000000000000000000 ) ) ;
#141 = DATE_AND_TIME ( #189, #236 ) ;
#142 = APPROVAL ( #19, 'UNSPECIFIED' ) ;
#143 = FACE_OUTER_BOUND ( 'NONE', #48, .T. ) ;
#144 = CC_DESIGN_APPROVAL ( #53, ( #49 ) ) ;
#145 = PLANE ( 'NONE',  #70 ) ;
#146 = CARTESIAN_POINT ( 'NONE',  ( -625.0000000000000000, -1250.000000000000500, 0.0000000000000000000 ) ) ;
#147 = PERSON_AND_ORGANIZATION ( #90, #63 ) ;
#148 = DIRECTION ( 'NONE',  ( 0.0000000000000000000, 0.0000000000000000000, -1.000000000000000000 ) ) ;
#149 = FACE_OUTER_BOUND ( 'NONE', #163, .T. ) ;
#150 = APPROVAL_ROLE ( '' ) ;
#151 = ADVANCED_FACE ( 'NONE', ( #106 ), #145, .F. ) ;
#152 = LINE ( 'NONE', #9, #95 ) ;
#153 = DIRECTION ( 'NONE',  ( -1.000000000000000000, -0.0000000000000000000, 0.0000000000000000000 ) ) ;
#154 = LINE ( 'NONE', #207, #223 ) ;
#155 = DIRECTION ( 'NONE',  ( -1.000000000000000000, 0.0000000000000000000, -0.0000000000000000000 ) ) ;
#156 = PERSON_AND_ORGANIZATION ( #90, #63 ) ;
#157 = APPROVAL_DATE_TIME ( #80, #142 ) ;
#158 = ORIENTED_EDGE ( 'NONE', *, *, #111, .T. ) ;
#159 = ORIENTED_EDGE ( 'NONE', *, *, #24, .F. ) ;
#160 = DESIGN_CONTEXT ( 'detailed design', #221, 'design' ) ;
#161 = PRODUCT_DEFINITION ( 'UNKNOWN', '', #49, #160 ) ;
#162 = VECTOR ( 'NONE', #136, 1000.000000000000000 ) ;
#163 = EDGE_LOOP ( 'NONE', ( #93, #98, #129, #73 ) ) ;
#164 = DIRECTION ( 'NONE',  ( 0.0000000000000000000, 0.0000000000000000000, -1.000000000000000000 ) ) ;
#165 = PERSON_AND_ORGANIZATION_ROLE ( 'classification_officer' ) ;
#166 = ORIENTED_EDGE ( 'NONE', *, *, #187, .T. ) ;
#167 = MECHANICAL_CONTEXT ( 'NONE', #1, 'mechanical' ) ;
#168 = APPROVAL_ROLE ( '' ) ;
#169 = ORIENTED_EDGE ( 'NONE', *, *, #92, .F. ) ;
#170 =( GEOMETRIC_REPRESENTATION_CONTEXT ( 3 ) GLOBAL_UNCERTAINTY_ASSIGNED_CONTEXT ( ( #34 ) ) GLOBAL_UNIT_ASSIGNED_CONTEXT ( ( #118, #99, #21 ) ) REPRESENTATION_CONTEXT ( 'NONE', 'WORKASPACE' ) );
#171 = CC_DESIGN_APPROVAL ( #104, ( #105 ) ) ;
#172 = PLANE ( 'NONE',  #29 ) ;
#173 = CARTESIAN_POINT ( 'NONE',  ( -625.0000000000000000, -1250.000000000000500, 0.0000000000000000000 ) ) ;
#174 = PLANE ( 'NONE',  #212 ) ;
#175 = EDGE_CURVE ( 'NONE', #133, #180, #119, .T. ) ;
#176 = CC_DESIGN_APPROVAL ( #142, ( #161 ) ) ;
#177 = EDGE_CURVE ( 'NONE', #190, #37, #185, .T. ) ;
#178 = PERSON_AND_ORGANIZATION ( #90, #63 ) ;
#179 = LINE ( 'NONE', #82, #36 ) ;
#180 = VERTEX_POINT ( 'NONE', #131 ) ;
#181 = VERTEX_POINT ( 'NONE', #182 ) ;
#182 = CARTESIAN_POINT ( 'NONE',  ( 625.0000000000000000, -1250.000000000000500, 0.0000000000000000000 ) ) ;
#183 = DIRECTION ( 'NONE',  ( 0.0000000000000000000, 0.0000000000000000000, -1.000000000000000000 ) ) ;
#184 = DATE_AND_TIME ( #224, #218 ) ;
#185 = LINE ( 'NONE', #64, #56 ) ;
#186 = PLANE ( 'NONE',  #137 ) ;
#187 = EDGE_CURVE ( 'NONE', #180, #107, #51, .T. ) ;
#188 = CARTESIAN_POINT ( 'NONE',  ( 0.0000000000000000000, 1249.999999999999500, 6.000000000000000000 ) ) ;
#189 = CALENDAR_DATE ( 2023, 11, 5 ) ;
#190 = VERTEX_POINT ( 'NONE', #66 ) ;
#191 = DIRECTION ( 'NONE',  ( -1.000000000000000000, 0.0000000000000000000, 0.0000000000000000000 ) ) ;
#192 = ADVANCED_FACE ( 'NONE', ( #143 ), #186, .F. ) ;
#193 = VECTOR ( 'NONE', #206, 1000.000000000000000 ) ;
#194 = COORDINATED_UNIVERSAL_TIME_OFFSET ( 8, 0, .BEHIND. ) ;
#195 = CLOSED_SHELL ( 'NONE', ( #192, #103, #4, #151, #50, #225 ) ) ;
#196 = PERSON_AND_ORGANIZATION ( #90, #63 ) ;
#197 = ORIENTED_EDGE ( 'NONE', *, *, #187, .F. ) ;
#198 = EDGE_CURVE ( 'NONE', #83, #78, #179, .T. ) ;
#199 = DIRECTION ( 'NONE',  ( 0.0000000000000000000, -0.0000000000000000000, -1.000000000000000000 ) ) ;
#200 = APPROVAL_DATE_TIME ( #184, #53 ) ;
#201 = CARTESIAN_POINT ( 'NONE',  ( 0.0000000000000000000, 0.0000000000000000000, 0.0000000000000000000 ) ) ;
#202 = DIRECTION ( 'NONE',  ( -1.000000000000000000, 0.0000000000000000000, -0.0000000000000000000 ) ) ;
#203 = PLANE ( 'NONE',  #214 ) ;
#204 = CALENDAR_DATE ( 2023, 11, 5 ) ;
#205 = ORIENTED_EDGE ( 'NONE', *, *, #79, .T. ) ;
#206 = DIRECTION ( 'NONE',  ( -0.0000000000000000000, -1.000000000000000000, 0.0000000000000000000 ) ) ;
#207 = CARTESIAN_POINT ( 'NONE',  ( 625.0000000000000000, 1249.999999999999500, 6.000000000000000000 ) ) ;
#208 = EDGE_LOOP ( 'NONE', ( #28, #205, #32, #197 ) ) ;
#209 = CARTESIAN_POINT ( 'NONE',  ( 625.0000000000000000, -1250.000000000000500, 6.000000000000000000 ) ) ;
#210 = DIRECTION ( 'NONE',  ( 0.0000000000000000000, -0.0000000000000000000, 1.000000000000000000 ) ) ;
#211 = EDGE_LOOP ( 'NONE', ( #159, #108, #23, #102 ) ) ;
#212 = AXIS2_PLACEMENT_3D ( 'NONE', #138, #55, #210 ) ;
#213 = ORIENTED_EDGE ( 'NONE', *, *, #198, .F. ) ;
#214 = AXIS2_PLACEMENT_3D ( 'NONE', #220, #183, #202 ) ;
#215 = MANIFOLD_SOLID_BREP ( 'NONE', #195 ) ;
#216 = LOCAL_TIME ( 8, 33, 5.000000000000000000, #74 ) ;
#217 = DIRECTION ( 'NONE',  ( 0.0000000000000000000, 1.000000000000000000, 0.0000000000000000000 ) ) ;
#218 = LOCAL_TIME ( 8, 33, 5.000000000000000000, #17 ) ;
#219 = ORIENTED_EDGE ( 'NONE', *, *, #92, .T. ) ;
#220 = CARTESIAN_POINT ( 'NONE',  ( 0.0000000000000000000, 0.0000000000000000000, 0.0000000000000000000 ) ) ;
#221 = APPLICATION_CONTEXT ( 'configuration controlled 3d designs of mechanical parts and assemblies' ) ;
#222 = PERSON_AND_ORGANIZATION_ROLE ( 'design_owner' ) ;
#223 = VECTOR ( 'NONE', #38, 1000.000000000000000 ) ;
#224 = CALENDAR_DATE ( 2023, 11, 5 ) ;
#225 = ADVANCED_FACE ( 'NONE', ( #16 ), #203, .T. ) ;
#226 = CALENDAR_DATE ( 2023, 11, 5 ) ;
#227 = DIRECTION ( 'NONE',  ( 0.0000000000000000000, -0.0000000000000000000, -1.000000000000000000 ) ) ;
#228 = ORIENTED_EDGE ( 'NONE', *, *, #59, .F. ) ;
#229 = CARTESIAN_POINT ( 'NONE',  ( -625.0000000000000000, 1249.999999999999500, 6.000000000000000000 ) ) ;
#230 = ORIENTED_EDGE ( 'NONE', *, *, #175, .T. ) ;
#231 = CC_DESIGN_PERSON_AND_ORGANIZATION_ASSIGNMENT ( #196, #130, ( #161 ) ) ;
#232 = LINE ( 'NONE', #140, #3 ) ;
#233 = CARTESIAN_POINT ( 'NONE',  ( -625.0000000000000000, -1250.000000000000500, 0.0000000000000000000 ) ) ;
#234 = CC_DESIGN_PERSON_AND_ORGANIZATION_ASSIGNMENT ( #147, #165, ( #105 ) ) ;
#235 = DIRECTION ( 'NONE',  ( 0.0000000000000000000, 1.000000000000000000, 0.0000000000000000000 ) ) ;
#236 = LOCAL_TIME ( 8, 33, 5.000000000000000000, #194 ) ;
#237 = APPLICATION_PROTOCOL_DEFINITION ( 'international standard', 'config_control_design', 1994, #1 ) ;
ENDSEC;
END-ISO-10303-21;
